Title: Reading Be Fun (RBF)
Artist: Chubby Bunny
Instrument: guitar
Tuning: Drop D
Comments: slight variations in riffs, 
          Riffs not arranged Exactly like song.
          

Pre Verse Riff

   (Bass Plays this riff for next 8 Bars)
||-----------------------------------------------8--|
||--------------------------------------------6-----|
||--------------------------------------8--7--------|
||--0--0----0-0-0-0-0----0-0-0--0----0--------------|
||                                                          
||     
||--------------------------------------------------------------|
||--------------------------------------------------------------|
||--------------------------------------------------------------|
||--------------------------------------------------------------|
||--------------------------------------8p5h8p5h8p5-7p5h7p5h7p5-|
||--0--0----0-0-0-0-0----0-0-0--0----0--------------------------|


                                                                  
-----------------------------------------------------------------|
-----------------------------------------------------------------|
-----------------------------------------------------------------|
-----------------------------------------------------------------|
--------------------------------------10p7h10p7h10p7-8p7h8p7h8p7-|
--0--0----0-0-0-0-0----0-0-0--0----0-----------------------------|


                                                                     
--------------------------------------------------------------------|
--------------------------------------------------------------------|
--------------------------------------------------------------------|
--------------------------------------------------------------------|
--------------------------------------11p8h11p8h11p8-10p8h10p8h10p8-|
--0--0----0-0-0-0-0----0-0-0--0----0--------------------------------|


                                                                    
-------------------------------------------------------------------|
-------------------------------------------------------------------|
-------------------------------------------------------------------|
---------------------------11p0-12p0-14p0-12p0-11p0-12p0-14p0-15p0-|
-------------------------------------------------------------------|
--0--0----0-0-0-0-0----0-0-----------------------------------------|


Verse Riff 
                                                             
--------------------------------------------------------------|
--------------------------------------------------------------|
--------------------------------------------------------------|
--------------------------------------------------------------|
--------------------------------------8p5h8p5h8p5-7p5h7p5h7p5-|
--0--0----0-0-0-0-0----0-0-0--0----0--------------------------|


                                                               
--------------------------------------------------------------|
--------------------------------------------------------------|
--------------------------------------------------------------|
--------------------------------------------------------------|
--------------------------------------------------------------|
--0--0----0-0-0-0-0----0-0-0--0----0--7p5h7p5h7p5-8p5h8p5h8p5-|


                                                               
--------------------------------------------------------------|
--------------------------------------------------------------|
--------------------------------------------------------------|
--------------------------------------------------------------|
--------------------------------------8p5h8p5h8p5-7p5h7p5h7p5-|
--0--0----0-0-0-0-0----0-0-0--0----0--------------------------|


                                                            
-----------------------------------------------------------|
-----------------------------------------------------------|
-----------------------------------------------------------|
---------------------------6p0-7p0-9p0-7p0-6p0-3p0-2p0-----|
-------------------------------------------------------4p0-|
--0--0----0-0-0-0-0----0-0---------------------------------|


Chorus Riff
                                                   
|-------------------------------------------------|
|-------------------------------------------------|
|*------------------------------------------------|
|*------------------------------------------------|
|---0--0--4--5--0--0--5--4--0--0--4--5--7----8----|
|---0--0--4--5--0--0--5--4--0--0--4--5--7----8----|


                                                    
--------------------------------------------------||
--------------------------------------------------||
-------------------------------------------------*||
-------------------------------------------------*||
-----------5-----------5-----------5--------3-----||
--0--0--3-----0--0--3-----0--0--3-----0--1--------||


Bridge Riff (pick 4x per note on 3rd to 6th time)
                                                      
|----------------------------------------------------||
|----------------------------------------------------||
|*--------------------------------------------------*||
|*--------------------------------3-----------------*||
|---------------------------2--2-----2---------------||
|---0--0--2--3--0--2--3--0--------------5--6--5--3---||





 See Lyrics Listen To MP3

Games | Main | Bio | Songs | Shows | Media | Links | E-Mail

Make your own free website on Tripod.com