Title: Marshmallow Madness
Artist: Chubby Bunny
Instrument: Guitar and Bass
Tuning: Drop D
Comments: slight variations in riffs, 
          Riffs not arranged exactly like song.


Intro/Outro Riff

E||------------------------------------------------------||
B||------------------------------------------------------||
G||*----------------------------6/-7--7--7/-8--8--8\-7--*||
D||*----------------------------------------------------*||
A||-----------------------------4/-5--5--5/-6--6--6\-5---||
D||------------------------------------------------------||
 ||
 ||
G||------------------------------------------------------||
D||*----------------------------------------------------*||
A||*----------------------------------------------------*||
E||---2----0--2--2--2--0--0------------------------------||



Verse Riff

         Gm7                                          
||---------3---3-------3---3-------3---3----------6---||
||---------3---3-------3---3-------3---3----------6---||
||*--------3---3-------3---3-------3---3----------6--*||
||*--------3---3-------3---3-------3---3----------6--*||
||---2--2--------2--2--------2--2--------2--3--5------||
||---2--2--------2--2--------2--2--------2--3--5------||
||
||
||---------3---3-------3---3-------3---3----------6---||
||*--------3---3-------3---3-------3---3----------6--*||
||*--------------------------------------------------*||
||---2--2--------2--2--------2--2--------2--3--5------||


Pre Chorus Fill

|-------------------------------------------------------
|-------------------------------------------------------
|--5--5-5-5--4--5--5/-7--7--9--9--10--10--9--9--10--10/-
|-------------------------------------------------------
|-------------------------------------------------------
|-------------------------------------------------------
|
|
|-----5-----5-----5-----5-----5-----5-----5-----5--
|--------4-----3-----4-----------4-----3-----4-----
|--3-----------------------3-----------------------
|--------------------------------------------------
                 
                                      
|-------------------------------------------------------|
|-------------------------------------------------------|
|--12--12--14--14--12--12--10--10--9--9--10--10--7--7--9|
|-------------------------------------------------------|
|-------------------------------------------------------|
|-------------------------------------------------------|
|
|                                                   
|-----5-----5-----5-----5-----5-----5-----5-----5--|
|--------4-----3-----4-----------4-----3-----4-----|
|--3-----------------------3-----------------------|
|--------------------------------------------------|


Chorus

||--------3---------5--6------||
||--------3--x------5--6------||
||*-------3--x------5--6--0--*||
||*-------3--x------------0--*||
||---2-------x-4--4-------0---||
||---2---------4--4-----------||
||
||
||--------3--x------5--6------||
||*-------3--x------------0--*||
||*--2-------x-4--4-------0--*||
||---2---------4--4-----------||



 See Lyrics Listen To MP3

Games | Main | Bio | Songs | Shows | Media | Links | E-Mail

Make your own free website on Tripod.com