Title: 'Granola'
Artist: Chubby Bunny 'http://chubbybunnyband.tripod.com'
Instrument: Guitar and Bass
Tuning: Standard 'e'
Comments: slight variations in riffs, 
          Riffs not arranged exactly like song.


      Am            C        E             F           
G|E||---0----0--0--0-----------0-------------1--1--1---||
U|B||---1----1--1--1--1--1--1--0-------------1--1--1---||
I|G||*--2----2--2--2--0--0--0--1----1--1--1--2--2--2--*||
T|D||*--2----2--2--2--2--2--2--2----2--2--2--3--3--3--*||
A|A||---0----0--0--0--3--3--3--2----2--2--2--3--3--3---||
R|E||--------------------------0----0--0--0--1--1--1---||

   Am                C        E             F           
G|---0------0--0--0------------0-------------1--1--1---||
U|---1------1--1--1---1--1--1--0-------------1--1--1---||
I|*--2------2--2--2---0--0--0--1----1--1--1--2--2--2--*||
T|*--2------2--2--2---2--2--2--2----2--2--2--3--3--3--*||
A|---0------0--0--0---3--3--3--2----2--2--2--3--3--3---||
R|-----------------------------0----0--0--0--1--1--1---||
 |
 |                                                            
B|-----------------------------------------------------||
A|*-----------------------12-------------9--------10--*||
S|*--12----12-12-15-12-15------7----7--7-----7/-8-----*||
S|-----------------------------------------------------||

   Am         A#          F#         C              
G|---0----0--0--1-----1-----------------------------||
U|---1----1--1--3--3--3--3--2----2--2--1--1--1--1---||
I|*--2----2--2--3--3--3--3--3----3--3--0--0--0--0--*||
T|*--2----2--2--3--3--3--3--4----4--4--2--2--2--2--*||
A|---0----0--0--1--1--1--1--4----4--4--3--3--3--3---||
R|--------------------------2----2--2---------------||
 |
 |                                                    
B|--------------------------------------------------||
A|*------------------------------------------------*||
S|*--0----0--0--1--1--1--1-------------3--3--3--3--*||
S|--------------------------2----2--2---------------||

Bridge

   E     F    G    Am   E    C    E    Am   G    F    E            G                     
G||------0----1----3----0----0----0----0----0----3----1-----------------3-3-3---||
U||------0----1----3----1----0----1----0----1----3----1----0-0-0--0-----3-3-3---||
I||*-----1----2----0----2----1----0----1----2----0----2----1-1-1--1-----0-0-0--*|| 
T||*-----2----3----0----2----2----2----2----2----0----3----2-2-2--2-----0-0-0--*||
A||------2----3----2-0----2----3----2----0-------2----3----2-2-2--2-----2-2-2---||
R||---0----1----3-----------------------------3----1----0------------3----------||
 ||
 ||                                                                      
B||-----------------------------------------------------------------------------|| 
A||*---------------------------------------------------------------------------*||
S||------2----3----2-0----2----3----2----0-------2----3------------------------*||
S||---0----1----3-----------------------------3----1----0------------3----------||

Solo

     Am                                                                       
G||------------0-----------------0-----------------0-----------------0--------|
U||---------1-----1-----------1-----1-----------1-----1-----------1-----1-----|
I||*-----2-----------2-----2-----------2-----2-----------2-----2-----------2--|
T||*--------------------2-----------------------------------------------------|
A||---0-----------------------------------0-----------------------------------|
R||---------------------------------------------------------3-----------------|
 || 
 ||                                                             
B||------------2-----2-----------2-----2-----------2-----2-----------0--------|
A||*--------------------------------------------------------------------------|
S||*--0-----0-----------0-----0-----------0-----0-----------0-----0-----------|
S||---------------------------------------------------------------------------|


  E                                                                          
G|-----------0-----------------0-----------------0-----------------0---------||
U|--------0-----0-----------0-----0-----------0-----0-----------3-----3------||
I|-----1-----------1-----1-----------1-----1-----------1-----1-----------1--*||
T|--------------------2-----------------3-----------------2-----------------*||
A|---------------------------------------------------------------------------||
R|--0------------------------------------------------------------------------||
 |
 |                                                                  
B|-----------1-----1-----------1-----1-----------1-----1---------------------||
A|-----------------------------------------------------------------0--------*||
S|--------------------------------------------------------------------------*||
S|--0-----0-----------0-----0-----------0-----0-----------0-----0------------||


   Am                                                                       
G||------------0-----------------0-----------------0-----------------0--------|
U||---------1-----1-----------1-----1-----------1-----1-----------1-----1-----|
I||*-----2-----------2-----2-----------2-----2-----------2-----2-----------2--|
T||*--------------------2-----------------------------------------------------|
A||---0-----------------------------------0-----------------------------------|
R||---------------------------------------------------------3-----------------|
 ||
 ||                                                                            
B||------------5--------------5--9--5--------------5-----------------4--------|
A||*--------7-----7--------7-----------7--------7-----7-----------5-----5-----|
S||*-----7-----------7--7--------------------7-----------7-----5-----------5--|
S||---5-----------------------------------5-----------------3-----------------|


  E                                                                          
G|-----------0-----------------0-----------------0-----------------0---------||
U|--------0-----0-----------0-----0-----------0-----0-----------3-----3------||
I|-----1-----------1-----1-----------1-----1-----------1-----1-----------1--*||
T|--------------------2-----------------3-----------------2-----------------*||
A|---------------------------------------------------------------------------||
R|--0------------------------------------------------------------------------||
 |
 |                                                                            
B|-----------4-----------------7-----------------4-----------------1---------||
A|--------6-----6-----------6-----6-----------6-----6-----------2-----2-----*||
S|-----7-----------7-----7-----------7-----7-----------7-----2-----------2--*||
S|--0-----------------0-----------------0-----------------0------------------||


  Am                F                 Dm6               Bsus4add13         
G|-----------0-----------------0-----------------------------------4--------|
U|--------1-----1-----------1-----1--------------0--------------0-----0-----|
I|-----2-----------2-----2-----------2--------2-----2--------1-----------1--|
T|--------------------3--------------------3-----------3--2-----------------|
A|--0-----------------------------------5-----------------------------------|
R|--------------------------------------------------------------------------|
 |
 |                                                                   
B|-----------2--------------2--5-----2-----------4-----------------1--------|
A|--------2--------2--3-----------------0-----2--------2--0-----2--------2--|
S|--0-----------------------------------------------------------------------|
S|--------------------------------------------------------------------------|


  C                 E7                Am                F                  
G|-----------------------------------------------------------------1--------|
U|-----------1-----------------3-----------------1--------------1-----1-----|
I|--------0-----0-----------1-----1-----------2-----2--------2-----------2--|
T|-----2-----------2-----2-----------2-----2-----------2--3-----------------|
A|--3-----------------2-----------------0-----------------------------------|
R|--------------------------------------------------------------------------|
 |
 |                                           
B|--------------------------------------------------------------------------|
A|--------------------------------------------------------------------------|
S|--3--------3--------2--------2--------0--------0--------------------------|
S|--------------------------------------------------------1--------1--------|
 

    E                                   Bsus4add13/F      E/D                  
G||------------0-----------------0-----------------0-----------------0---------||
U||---------0-----0-----------0-----0-----------0-----0-----------0-----0------||
I||*-----1-----------1-----1-----------1-----1-----------1-----1-----------1--*||
T||*--2-----------------2-----------------3-----------------0-----------------*||
A||----------------------------------------------------------------------------||
R||----------------------------------------------------------------------------||
 ||
 ||                                                                               
B||----------------------------------------------------------------------------||
A||*--2-----------------2-----------------3-----------------0-----------------*||
S||*--------------------------------------------------------------------------*||
S||------0--0--0--0--0-----0--0--0--0--0-----0--0--0--0--0-----0--0--0--0--0---||


  Fadd9       E           C           E            
G|--3--1--0-----0-----------0-----------------------|
U|--1--------3--0--3--1--0--3--1--0-----------------|
I|--2-----------1-----------0--------2--1-----------|
T|--3-----------2-----------2-----------2--2--3--0--|
A|--------------------------3-----------2-----------|
R|--------------------------------------0-----------|
 |
 |                                                                                  
B|--------------------------------------------------|
A|--5--3--2--0--2--0--------------------------------|
S|--------------------3--2--5--3--2--0--------------|
S|--------------------------------------4--1--0--1--|

                                
                                           
G||--------0--0--0--0-------0----0----|-------0--0--0--0--------------------|
U||--------1--1--1--1-------0----0----|-------1--1--1--1--------------------|
I||*-------2--2--2--2-------1----1----|-------2--2--2--2--------------------|
T||*-------2--2--2--2-------2----2----|-------2--2--2--2--------------------|
A||---0---------------------2----2----|--0----------------------------------|
R||--------------------0--------------|-------------------0--1--3--1--0--1--|
 ||
 ||
B||-----------------------------------|-------------------------------------|
A||*----------------------------------|----------------------2-----3-----0--|
S||*--0-------------------------------|--0----------------------------------|
S||--------------------0--------------|-------------------------------------|
                                                            

                                                                           
G|-------0--0--0--0-------0----0----|-------0--0--0--0---------------------||
U|-------1--1--1--1-------0----0----|-------1--1--1--1---------------------||
I|-------2--2--2--2-------1----1----|-------2--2--2--2--------------------*||
T|-------2--2--2--2-------2----2----|-------2--2--2--2-----------2--------*||
A|--0---------------------2----2----|--0----------------0--2--3-----3--2---||
R|-------------------0--------------|--------------------------------------||
 |
 |                                 
B|----------------------------------|----------------------------2-----5---||
A|----------------------------------|----------------------2--------------*||
S|--0-------------------------------|--0----------------------------------*||
S|-------------------0--------------|--------------------------------------||


   Am                C        E             F           
G|---0------0--0--0------------0-------------1--1--1---||
U|---1------1--1--1---1--1--1--0-------------1--1--1---||
I|*--2------2--2--2---0--0--0--1----1--1--1--2--2--2--*||
T|*--2------2--2--2---2--2--2--2----2--2--2--3--3--3--*||
A|---0------0--0--0---3--3--3--2----2--2--2--3--3--3---||
R|-----------------------------0----0--0--0--1--1--1---||
 |
 |                                                            
B|-----------------------------------------------------||
A|*-----------------------12-------------9--------10--*||
S|*--12----12-12-15-12-15------7----7--7-----7/-8-----*||
S|-----------------------------------------------------||







 See Lyrics

Games | Main | Bio | Songs | Shows | Media | Links | E-Mail

Make your own free website on Tripod.com