Title: "Arabian Sunrise"
Artist: Chubby Bunny
Instrument: Guitar and Bass
Tuning: Drop D
Comments: slight variations in riffs, 
          Riffs not arranged exactly like song.


Pre Intro Riff
Guitar-Clean
                                                       
E||----------------------------------------------------
B||--------7--8--10--11--10--8-10-8-7-----7------------
G||-----7------------------------------8-----8--7-8-7-5
D||--0-------------------------------------------------
A||----------------------------------------------------
D||----------------------------------------------------

                                                       
-------------------------8--10--11--14--11--10-11-10-9-
-----------7--8--10--11--------------------------------
-----7--8----------------------------------------------
--0----------------------------------------------------
-------------------------------------------------------
-------------------------------------------------------


 Intro Riff
    (guitar fidles around)                          
||-------------------------------|-------------------------------||
||-------------------------------|-------------------------------||
||*------------------------------|------------------------------*||
||*------------------------------|------------------------------*||
||-------------------------------|-------------------------------||
||-------------------------------|-------------------------------||
||
||(Bass Riff 1)
||-------------------------------|-----8-----8-------------------||
||*----4------4------5------7----|-----8-----8--15--15--15--14--*||
||*------------------------------|--6-----6-----13--13--13--12--*||
||--0------0------0------0-------|-------------------------------||



( with Bass Riff 1 4x and 'Endings')                                               
-----------------------------------------------|
-----------------------------------------------|
*-------7h8p7-------6p-3-------3--2------------|
*-------0-----------0----------0--0--4----5----|
-------------------------------------0----6----|
---0-----------0----------0--------------------|


|-Ending 1                                                 
-----------------------------------------------||
-----------------------------------------------||
-------7h8p7-------6p-3-------0--2--3----2----*||
-------0-----------0----------0--0--0----0----*||
-----------------------------------------------||
--0-----------0----------0---------------------||


|-Ending 2                                         
----------------------------------------------||
----------------------------------------------||
-------2h3p2-------2p-0----------------------*||
-------0-----------0----------4----4----1----*||
------------------------------0----0----0-----||
--0-----------0----------0--------------------||


|-Ending 3                                               
------------------------------------------------------|
------------------------------------------------------|
-------7h8p7-------8p-11-------11--12--12--14--14----*|
-------0-----------0-----------0---0---0---0---0-----*|
------------------------------------------------------|
--0-----------0-----------0---------------------------|


|-Ending 4                                           
---------------------------------------------|
---------------------------------------------|
-------2h3p2-------2p-0----------------------|
-------0-----------0----------4----4----1----|
------------------------------0----0----0----|
--0-----------0----------0-------------------|


Post Intro Fill

|---------------------------------------------------||
|---------------------------------------------------||
|*-------------------------------------------------*||
|*--------0------------8--7--------0---------------*||
|------0------------8-----------0-------------------||
|---0--------1-3-6-----------0--------1-3-4~--------||
|
|                                                 3x
|---------------------------------------------------||
|*-------------------------------------------------*||
|*-------------------------------------------------*||
|---0--0--0--1-3-6-----------0--0--0--1-3-4---------||


Verse Riff

                                                  
|-------------------------------------------------|
|-------------------------------------------------|
|*---------------------------------------------5--|
|*-------------7----------------------7--------5--|
|---0--0----0--5--0--2--3--0--0----0--5--0--3--3--|
|---0--0----0-----0--2--3--0--0----0-----0--3-----|
|
|
|-------------------------------------------------|
|*------------------------------------------------|
|*-------------5----------------------5--------3--|
|---0--0----0-----0--2--3--0--0----0-----0--3-----|

        
                                               
|-------------------------------------------------||
|-------------------------------------------------||
|------------------------------------------------*||
|-------------7----------------------------------*||
|--0--0----0--5--0--2--3--0--0----0--3h5p3--0h1p0-||
|--0--0----0-----0--2--3--0--0----0---------------||
|
|                                                  
|-------------------------------------------------||
|------------------------------------------------*||
|-------------5----------------------5--------3--*||
|--0--0----0-----0--2--3--0--0----0-----0--3------||


Chorus Riff
                                             
||------------------------------------------|
||------------------------------------------|
||*-----------------------------------------|
||*-----------------------------------------|
||---0----0--0--3h-5--0---------------------|
||---0----0--0--------0--1------------------|      
||
||                                     
||------------------------------------------|
||*-----------------------------------------|
||*-------------3h-5------------------------|
||---0----0--0--------0--1------------------|


|-Ending 1    
                                                 
|-----------------------------------------------||
|-----------------------------------------------||
|----------------------------------------------*||
|------------------------------------3----2----*||
|--0----0--0--3h-5--0--1------------------------||
|--0----0--0--------0--1----1--1--1-------------||
|                                             
|                                             
|-----------------------------------------------||
|------------------------------------3----2----*||
|-------------3h-5-----------------------------*||
|--0----0--0--------0--1----1--1--1-------------||


|-Ending 2                           
                                               
|----------------------------------------------|
|----------------------------------------------|
|----------------------------------------------|
|------------------------------------3---------|
|--0----0--0--3--5--0---------------------3----|
|--0----0--0--------0--1----1--1--1------------|
|
|
|----------------------------------------------|
|------------------------------------3----2----|
|-------------3h-5-----------------------------|
|--0----0--0--------0--1----1--1--1------------|


Outro Solo
( with Bass Riff 1 3x)                                                    
--------------------------------------------------|
-----------------------------------------7--8-----|
-------7h8p7-----7--6--------6--7--------------8--|
-------0---------------7--8--------8--7-----------|
--------------------------------------------------|
--0-----------0-----------------------------------|



--------------------9-10-9------------11-10-8----------------------------|
--10--10-10-10--11---------11--10--8----------11-13-11--10--8------8-----|
---------------------------------------------------------------11-----8--|
-------------------------------------------------------------------------|
-------------------------------------------------------------------------|
-------------------------------------------------------------------------|


                                                                 
-------10--10----8----------------------------------------------|
-------7---7--------10-11-8-------------------------------------|
-------7---7-----------------8--8-8-10--10-10-12--12-12-11------|
-------7---7------------------------------------------------10--|
----------------------------------------------------------------|
--0-------------------------------------------------------------|


                                                                              
-------11--11----10-----------11-10-11-11------------------------------------|
-------8---8---------10-11-13-------------13-11-10-11-10-----10------10------|
--8----8---8---------------------------------------------12------11----------|
-------------------------------------------------------------------------12--|
-----------------------------------------------------------------------------|
-----------------------------------------------------------------------------|


                                                                             
--14--10-14-10-----10-------------------------------------------------------|
---------------14------14--10-14-10-----10--11------10------11------13------|
------------------------------------14----------14------14------14------14--|
----------------------------------------------------------------------------|
----------------------------------------------------------------------------|
----------------------------------------------------------------------------|


                                                                                      
--15--11-15-11-----11-----------------------------------------------------------------
---------------15------15--11-15-11-----11--------------------------------------------
------------------------------------14------14-11----------11-------------------------
--------------------------------------------------13-12-13----13-12-10----------------
-----------------------------------------------------------------------13-12-10-9-----
-----------------------------------------------------------------------------------12-



Outro
( with Bass Riff 1 )                                                                
||--------10--10-------10---------10--10-------10----|
||--------7---7--------7----------7---7--------7-----|
||*-------7---7--------7----------7---7--------7-----|
||*--------------------------------------------------|
||---------------------------------------------------|
||---0------------0----------0------------0----------|


                                                
-------8--8-------8--8-------6--6--6----5-----||
-------8--8-------8--8-------7--7--7----7-----||
-------8--8-------8--8-------7--7--7----7----*||
---------------------------------------------*||
----------------------------------------------||
--0----------0----------0---------------------||


  (rake)                                   
|--10-------------------------------||
|--7--------------------------------||
|--7--------------------------------||
|--0--------------------------------||
|--0--------------------------------||
|--0--------------------------------||
|
|                                     
|-----------------------------------||
|-----------------------------------||
|-----------------------------------||
|--0--------------------------------||




Games | Main | Bio | Songs | Shows | Media | Links | E-Mail

Make your own free website on Tripod.com